ISO-10303-21;
HEADER;
FILE_DESCRIPTION (( 'STEP AP203' ),
    '1' );
FILE_NAME ('BK7-RNDF-25.4-3.STEP',
    '2020-12-22T01:28:30',
    ( '' ),
    ( '' ),
    'SwSTEP 2.0',
    'SolidWorks 2020',
    '' );
FILE_SCHEMA (( 'CONFIG_CONTROL_DESIGN' ));
ENDSEC;

DATA;
#1 = LINE ( 'NONE', #47, #20 ) ;
#2 =( NAMED_UNIT ( * ) PLANE_ANGLE_UNIT ( ) SI_UNIT ( $, .RADIAN. ) );
#3 = APPLICATION_CONTEXT ( 'configuration controlled 3d designs of mechanical parts and assemblies' ) ;
#4 = EDGE_CURVE ( 'NONE', #160, #165, #82, .T. ) ;
#5 = PERSON ( 'UNSPECIFIED', 'UNSPECIFIED', 'UNSPECIFIED', ('UNSPECIFIED'), ('UNSPECIFIED'), ('UNSPECIFIED') ) ;
#6 = AXIS2_PLACEMENT_3D ( 'NONE', #100, #121, #148 ) ;
#7 = PERSON_AND_ORGANIZATION ( #5, #31 ) ;
#8 = APPROVAL_DATE_TIME ( #87, #107 ) ;
#9 = VERTEX_POINT ( 'NONE', #74 ) ;
#10 = APPROVAL_STATUS ( 'not_yet_approved' ) ;
#11 = AXIS2_PLACEMENT_3D ( 'NONE', #171, #89, #145 ) ;
#12 = APPLICATION_PROTOCOL_DEFINITION ( 'international standard', 'config_control_design', 1994, #3 ) ;
#13 = CARTESIAN_POINT ( 'NONE',  ( 0.000000000000000000, 0.000000000000000000, 12.69999999999999929 ) ) ;
#14 = ORIENTED_EDGE ( 'NONE', *, *, #174, .T. ) ;
#15 = ORIENTED_EDGE ( 'NONE', *, *, #166, .F. ) ;
#16 = CARTESIAN_POINT ( 'NONE',  ( 1.999999999999999112, 12.69999999999999929, 0.000000000000000000 ) ) ;
#17 = APPROVAL_PERSON_ORGANIZATION ( #125, #95, #113 ) ;
#18 = ADVANCED_FACE ( 'NONE', ( #132 ), #144, .F. ) ;
#19 = CC_DESIGN_DATE_AND_TIME_ASSIGNMENT ( #71, #127, ( #45 ) ) ;
#20 = VECTOR ( 'NONE', #88, 1000.000000000000000 ) ;
#21 = CC_DESIGN_PERSON_AND_ORGANIZATION_ASSIGNMENT ( #143, #61, ( #45 ) ) ;
#22 = ORIENTED_EDGE ( 'NONE', *, *, #85, .F. ) ;
#23 = PERSON_AND_ORGANIZATION_ROLE ( 'design_owner' ) ;
#24 = ORIENTED_EDGE ( 'NONE', *, *, #123, .T. ) ;
#25 = CARTESIAN_POINT ( 'NONE',  ( 0.000000000000000000, 0.000000000000000000, 0.000000000000000000 ) ) ;
#26 =( LENGTH_UNIT ( ) NAMED_UNIT ( * ) SI_UNIT ( .MILLI., .METRE. ) );
#27 = ORIENTED_EDGE ( 'NONE', *, *, #170, .T. ) ;
#28 = CARTESIAN_POINT ( 'NONE',  ( 0.000000000000000000, 0.000000000000000000, 0.000000000000000000 ) ) ;
#29 = LOCAL_TIME ( 9, 28, 30.00000000000000000, #138 ) ;
#30 = APPLICATION_PROTOCOL_DEFINITION ( 'international standard', 'config_control_design', 1994, #33 ) ;
#31 = ORGANIZATION ( 'UNSPECIFIED', 'UNSPECIFIED', '' ) ;
#32 = ADVANCED_BREP_SHAPE_REPRESENTATION ( 'BK7-RNDF-25.4-3', ( #98, #6 ), #35 ) ;
#33 = APPLICATION_CONTEXT ( 'configuration controlled 3d designs of mechanical parts and assemblies' ) ;
#34 = CALENDAR_DATE ( 2020, 22, 12 ) ;
#35 =( GEOMETRIC_REPRESENTATION_CONTEXT ( 3 ) GLOBAL_UNCERTAINTY_ASSIGNED_CONTEXT ( ( #137 ) ) GLOBAL_UNIT_ASSIGNED_CONTEXT ( ( #26, #2, #161 ) ) REPRESENTATION_CONTEXT ( 'NONE', 'WORKASPACE' ) );
#36 = DIRECTION ( 'NONE',  ( 0.000000000000000000, 0.000000000000000000, 1.000000000000000000 ) ) ;
#37 = DIRECTION ( 'NONE',  ( -1.000000000000000000, 0.000000000000000000, -0.000000000000000000 ) ) ;
#38 = AXIS2_PLACEMENT_3D ( 'NONE', #65, #50, #48 ) ;
#39 = VERTEX_POINT ( 'NONE', #147 ) ;
#40 = PERSON_AND_ORGANIZATION ( #5, #31 ) ;
#41 = DATE_AND_TIME ( #53, #52 ) ;
#42 = APPROVAL_STATUS ( 'not_yet_approved' ) ;
#43 = COORDINATED_UNIVERSAL_TIME_OFFSET ( 8, 0, .AHEAD. ) ;
#44 = ORIENTED_EDGE ( 'NONE', *, *, #4, .T. ) ;
#45 = SECURITY_CLASSIFICATION ( '', '', #155 ) ;
#46 = PLANE ( 'NONE',  #38 ) ;
#47 = CARTESIAN_POINT ( 'NONE',  ( 0.000000000000000000, 1.555301434917138433E-15, -12.69999999999999929 ) ) ;
#48 = DIRECTION ( 'NONE',  ( 0.000000000000000000, 0.000000000000000000, -1.000000000000000000 ) ) ;
#49 = AXIS2_PLACEMENT_3D ( 'NONE', #25, #156, #116 ) ;
#50 = DIRECTION ( 'NONE',  ( 1.000000000000000000, 0.000000000000000000, 0.000000000000000000 ) ) ;
#51 = ADVANCED_FACE ( 'NONE', ( #102 ), #64, .T. ) ;
#52 = LOCAL_TIME ( 9, 28, 30.00000000000000000, #43 ) ;
#53 = CALENDAR_DATE ( 2020, 22, 12 ) ;
#54 = PERSON_AND_ORGANIZATION_ROLE ( 'creator' ) ;
#55 = PERSON_AND_ORGANIZATION ( #5, #31 ) ;
#56 = DIRECTION ( 'NONE',  ( -1.000000000000000000, -0.000000000000000000, -0.000000000000000000 ) ) ;
#57 = LOCAL_TIME ( 9, 28, 30.00000000000000000, #97 ) ;
#58 = VECTOR ( 'NONE', #77, 1000.000000000000000 ) ;
#59 = DATE_AND_TIME ( #34, #124 ) ;
#60 = APPROVAL ( #10, 'UNSPECIFIED' ) ;
#61 = PERSON_AND_ORGANIZATION_ROLE ( 'classification_officer' ) ;
#62 = ORIENTED_EDGE ( 'NONE', *, *, #170, .F. ) ;
#63 = DIRECTION ( 'NONE',  ( -1.000000000000000000, -0.000000000000000000, -0.000000000000000000 ) ) ;
#64 = CYLINDRICAL_SURFACE ( 'NONE', #49, 12.69999999999999929 ) ;
#65 = CARTESIAN_POINT ( 'NONE',  ( -5.939536975864662969E-16, 12.69999999999999929, 0.000000000000000000 ) ) ;
#66 = CC_DESIGN_PERSON_AND_ORGANIZATION_ASSIGNMENT ( #7, #54, ( #139 ) ) ;
#67 = PRODUCT ( 'BK7-RNDF-25.4-3', 'BK7-RNDF-25.4-3', '', ( #129 ) ) ;
#68 = EDGE_LOOP ( 'NONE', ( #27, #110 ) ) ;
#69 = CIRCLE ( 'NONE', #78, 12.69999999999999929 ) ;
#70 = PERSON_AND_ORGANIZATION ( #5, #31 ) ;
#71 = DATE_AND_TIME ( #114, #29 ) ;
#72 = CC_DESIGN_PERSON_AND_ORGANIZATION_ASSIGNMENT ( #111, #126, ( #79 ) ) ;
#73 = ADVANCED_FACE ( 'NONE', ( #76 ), #106, .T. ) ;
#74 = CARTESIAN_POINT ( 'NONE',  ( -1.187907395172932594E-15, 0.000000000000000000, 12.69999999999999929 ) ) ;
#75 = EDGE_LOOP ( 'NONE', ( #44, #149, #62, #91 ) ) ;
#76 = FACE_OUTER_BOUND ( 'NONE', #75, .T. ) ;
#77 = DIRECTION ( 'NONE',  ( -1.000000000000000000, -0.000000000000000000, -0.000000000000000000 ) ) ;
#78 = AXIS2_PLACEMENT_3D ( 'NONE', #131, #63, #118 ) ;
#79 = PRODUCT_DEFINITION ( 'UNKNOWN', '', #139, #135 ) ;
#80 = CIRCLE ( 'NONE', #11, 12.69999999999999929 ) ;
#81 = CALENDAR_DATE ( 2020, 22, 12 ) ;
#82 = CIRCLE ( 'NONE', #128, 12.69999999999999929 ) ;
#83 = CALENDAR_DATE ( 2020, 22, 12 ) ;
#84 = CC_DESIGN_SECURITY_CLASSIFICATION ( #45, ( #139 ) ) ;
#85 = EDGE_CURVE ( 'NONE', #165, #39, #1, .T. ) ;
#86 = AXIS2_PLACEMENT_3D ( 'NONE', #16, #37, #146 ) ;
#87 = DATE_AND_TIME ( #81, #57 ) ;
#88 = DIRECTION ( 'NONE',  ( -1.000000000000000000, -0.000000000000000000, -0.000000000000000000 ) ) ;
#89 = DIRECTION ( 'NONE',  ( -1.000000000000000000, -0.000000000000000000, -0.000000000000000000 ) ) ;
#90 = CC_DESIGN_APPROVAL ( #60, ( #45 ) ) ;
#91 = ORIENTED_EDGE ( 'NONE', *, *, #123, .F. ) ;
#92 = CARTESIAN_POINT ( 'NONE',  ( 1.999999999999998224, 0.000000000000000000, 0.000000000000000000 ) ) ;
#93 = CC_DESIGN_DATE_AND_TIME_ASSIGNMENT ( #154, #153, ( #79 ) ) ;
#94 = CLOSED_SHELL ( 'NONE', ( #73, #51, #18, #117 ) ) ;
#95 = APPROVAL ( #42, 'UNSPECIFIED' ) ;
#96 = LOCAL_TIME ( 9, 28, 30.00000000000000000, #141 ) ;
#97 = COORDINATED_UNIVERSAL_TIME_OFFSET ( 8, 0, .AHEAD. ) ;
#98 = MANIFOLD_SOLID_BREP ( 'Ðý×', #94 ) ;
#99 = SHAPE_DEFINITION_REPRESENTATION ( #120, #32 ) ;
#100 = CARTESIAN_POINT ( 'NONE',  ( 0.000000000000000000, 0.000000000000000000, 0.000000000000000000 ) ) ;
#101 = ORIENTED_EDGE ( 'NONE', *, *, #174, .F. ) ;
#102 = FACE_OUTER_BOUND ( 'NONE', #119, .T. ) ;
#103 = DIRECTION ( 'NONE',  ( 0.000000000000000000, 0.000000000000000000, 1.000000000000000000 ) ) ;
#104 = FACE_OUTER_BOUND ( 'NONE', #68, .T. ) ;
#105 = CIRCLE ( 'NONE', #172, 12.69999999999999929 ) ;
#106 = CYLINDRICAL_SURFACE ( 'NONE', #112, 12.69999999999999929 ) ;
#107 = APPROVAL ( #108, 'UNSPECIFIED' ) ;
#108 = APPROVAL_STATUS ( 'not_yet_approved' ) ;
#109 = APPROVAL_DATE_TIME ( #41, #60 ) ;
#110 = ORIENTED_EDGE ( 'NONE', *, *, #166, .T. ) ;
#111 = PERSON_AND_ORGANIZATION ( #5, #31 ) ;
#112 = AXIS2_PLACEMENT_3D ( 'NONE', #28, #158, #134 ) ;
#113 = APPROVAL_ROLE ( '' ) ;
#114 = CALENDAR_DATE ( 2020, 22, 12 ) ;
#115 = LINE ( 'NONE', #13, #58 ) ;
#116 = DIRECTION ( 'NONE',  ( 0.000000000000000000, 0.000000000000000000, 1.000000000000000000 ) ) ;
#117 = ADVANCED_FACE ( 'NONE', ( #104 ), #46, .F. ) ;
#118 = DIRECTION ( 'NONE',  ( 0.000000000000000000, 0.000000000000000000, 1.000000000000000000 ) ) ;
#119 = EDGE_LOOP ( 'NONE', ( #22, #14, #24, #15 ) ) ;
#120 = PRODUCT_DEFINITION_SHAPE ( 'NONE', 'NONE',  #79 ) ;
#121 = DIRECTION ( 'NONE',  ( 0.000000000000000000, 0.000000000000000000, 1.000000000000000000 ) ) ;
#122 = APPROVAL_PERSON_ORGANIZATION ( #70, #60, #169 ) ;
#123 = EDGE_CURVE ( 'NONE', #160, #9, #115, .T. ) ;
#124 = LOCAL_TIME ( 9, 28, 30.00000000000000000, #142 ) ;
#125 = PERSON_AND_ORGANIZATION ( #5, #31 ) ;
#126 = PERSON_AND_ORGANIZATION_ROLE ( 'creator' ) ;
#127 = DATE_TIME_ROLE ( 'classification_date' ) ;
#128 = AXIS2_PLACEMENT_3D ( 'NONE', #92, #56, #36 ) ;
#129 = MECHANICAL_CONTEXT ( 'NONE', #33, 'mechanical' ) ;
#130 = EDGE_LOOP ( 'NONE', ( #152, #101 ) ) ;
#131 = CARTESIAN_POINT ( 'NONE',  ( -1.187907395172932594E-15, 0.000000000000000000, 0.000000000000000000 ) ) ;
#132 = FACE_OUTER_BOUND ( 'NONE', #130, .T. ) ;
#133 = PRODUCT_RELATED_PRODUCT_CATEGORY ( 'detail', '', ( #67 ) ) ;
#134 = DIRECTION ( 'NONE',  ( 0.000000000000000000, 0.000000000000000000, 1.000000000000000000 ) ) ;
#135 = DESIGN_CONTEXT ( 'detailed design', #3, 'design' ) ;
#136 = CC_DESIGN_PERSON_AND_ORGANIZATION_ASSIGNMENT ( #55, #23, ( #67 ) ) ;
#137 = UNCERTAINTY_MEASURE_WITH_UNIT (LENGTH_MEASURE( 1.000000000000000082E-05 ), #26, 'distance_accuracy_value', 'NONE');
#138 = COORDINATED_UNIVERSAL_TIME_OFFSET ( 8, 0, .AHEAD. ) ;
#139 = PRODUCT_DEFINITION_FORMATION_WITH_SPECIFIED_SOURCE ( 'ANY', '', #67, .NOT_KNOWN. ) ;
#140 = CC_DESIGN_PERSON_AND_ORGANIZATION_ASSIGNMENT ( #40, #150, ( #139 ) ) ;
#141 = COORDINATED_UNIVERSAL_TIME_OFFSET ( 8, 0, .AHEAD. ) ;
#142 = COORDINATED_UNIVERSAL_TIME_OFFSET ( 8, 0, .AHEAD. ) ;
#143 = PERSON_AND_ORGANIZATION ( #5, #31 ) ;
#144 = PLANE ( 'NONE',  #86 ) ;
#145 = DIRECTION ( 'NONE',  ( 0.000000000000000000, 0.000000000000000000, 1.000000000000000000 ) ) ;
#146 = DIRECTION ( 'NONE',  ( -0.000000000000000000, 0.000000000000000000, 1.000000000000000000 ) ) ;
#147 = CARTESIAN_POINT ( 'NONE',  ( -1.187907395172932594E-15, 1.555301434917138433E-15, -12.69999999999999929 ) ) ;
#148 = DIRECTION ( 'NONE',  ( 1.000000000000000000, 0.000000000000000000, 0.000000000000000000 ) ) ;
#149 = ORIENTED_EDGE ( 'NONE', *, *, #85, .T. ) ;
#150 = PERSON_AND_ORGANIZATION_ROLE ( 'design_supplier' ) ;
#151 = APPROVAL_PERSON_ORGANIZATION ( #167, #107, #163 ) ;
#152 = ORIENTED_EDGE ( 'NONE', *, *, #4, .F. ) ;
#153 = DATE_TIME_ROLE ( 'creation_date' ) ;
#154 = DATE_AND_TIME ( #83, #96 ) ;
#155 = SECURITY_CLASSIFICATION_LEVEL ( 'unclassified' ) ;
#156 = DIRECTION ( 'NONE',  ( -1.000000000000000000, -0.000000000000000000, -0.000000000000000000 ) ) ;
#157 = CARTESIAN_POINT ( 'NONE',  ( 1.999999999999998224, 1.555301434917138433E-15, -12.69999999999999929 ) ) ;
#158 = DIRECTION ( 'NONE',  ( -1.000000000000000000, -0.000000000000000000, -0.000000000000000000 ) ) ;
#159 = DIRECTION ( 'NONE',  ( -1.000000000000000000, -0.000000000000000000, -0.000000000000000000 ) ) ;
#160 = VERTEX_POINT ( 'NONE', #173 ) ;
#161 =( NAMED_UNIT ( * ) SI_UNIT ( $, .STERADIAN. ) SOLID_ANGLE_UNIT ( ) );
#162 = CC_DESIGN_APPROVAL ( #95, ( #139 ) ) ;
#163 = APPROVAL_ROLE ( '' ) ;
#164 = APPROVAL_DATE_TIME ( #59, #95 ) ;
#165 = VERTEX_POINT ( 'NONE', #157 ) ;
#166 = EDGE_CURVE ( 'NONE', #39, #9, #80, .T. ) ;
#167 = PERSON_AND_ORGANIZATION ( #5, #31 ) ;
#168 = CC_DESIGN_APPROVAL ( #107, ( #79 ) ) ;
#169 = APPROVAL_ROLE ( '' ) ;
#170 = EDGE_CURVE ( 'NONE', #9, #39, #69, .T. ) ;
#171 = CARTESIAN_POINT ( 'NONE',  ( -1.187907395172932594E-15, 0.000000000000000000, 0.000000000000000000 ) ) ;
#172 = AXIS2_PLACEMENT_3D ( 'NONE', #175, #159, #103 ) ;
#173 = CARTESIAN_POINT ( 'NONE',  ( 1.999999999999998224, 0.000000000000000000, 12.69999999999999929 ) ) ;
#174 = EDGE_CURVE ( 'NONE', #165, #160, #105, .T. ) ;
#175 = CARTESIAN_POINT ( 'NONE',  ( 1.999999999999998224, 0.000000000000000000, 0.000000000000000000 ) ) ;
ENDSEC;
END-ISO-10303-21;
